Si quieres unirte a nuestra comunidad, escribe a supervacaARROBAelforodelukelelePUNTOcom para solicitar una invitación.

Todo el contenido del foro es de acceso público y no requiere registro.

Cómo tocar "Cigarettes" de Russian red

Hola a todos, quisiera pedirles una ayudita si no les molesta claro :)

Bueno, seguramente conocerán esta canción.


Estos son los tabs en la guitarra...

(se toca con un capo en el traste 6)
e|---------------------------------------------------------------------------|
B|---------------------------------------------------------------------------|
G|---------------------------------------------------------------------------|
D|-------------------------------------8---8---8---8----8---8---8---8--------|
A|---6---6---6---6---6---6---6---6---9---9---9---9----8---8------------------|
E|-9---9---9---9---8---8---8---8------------------------------8---8----------|

La cuestión, es que intente pasarla al uke, pero obviamente por la altura NO suena, ni hablar que las notas en el uke están en otras tonalidades y eso. Asi que bueno... ¿es posible cambiar la tonalidad de la canción para puntearla en el uke?
Acá dejo una imágen con los mastiles de la guitarra y del ukelele por si es de ayuda: http://i.imgur.com/WPe5n.jpg

Si es posible cambiarle la tonalidad al punteo para que suene bien en el uke, les agradecería muchisimo la ayuda.

Si existe alguna web que muestre una equivalencia entre las tonalidades de la guitarra y del uke, estaría genial para tocar canciones naturalmente de guitarra en el uke. Cualquiera de estas cosas sirve!

Gracias de antemano

Un abrazo! :D

Comentarios

  • Buenas, prueba con esto quisas ;-)

    A -------------------------------------------------------------
    E --------------------------------------------------2-----2----
    C --1-----1-----1-----1-----0-----0-----0-----0----------------
    G -----1-----1-----1-----1-----1-----1-----1-----1-----3-----3-


    A ----------------------------------------
    E --2-----2-----1-----1-------------------
    C --------------------------3-----3-------
    G -----3-----3-----3-----3-----1-----1----


    espero que te vaia bien
  • No me acuerdo exactamente si era la tab que te ha puesto arnau, pero recuerdo que en la web uketabs había una de Cigarettes en el ukelele que sonaba muy decente ; )
  • editado septiembre 2012
    Soy @matiasarg91, por alguna razón mi cuenta quedo bloqueada...

    Bueno, GRACIAS @arnau, suena IGUAL!! si tenés alguna web donde hayan tabs por favor pasamela :D

    @dogtag wow! en uketabs hay muchas canciones? voy a investigar

    Gracias chicos :D!
Este hilo ha sido cerrado.