Si quieres unirte a nuestra comunidad, escribe a supervacaARROBAelforodelukelelePUNTOcom para solicitar una invitación.

Todo el contenido del foro es de acceso público y no requiere registro.

LOST - Life and Death tabs, para los LOSTMANIACOS , si hay alguno por ahi

He encontrado una tema que salia en un capitulo de la serie Lost y he querido compartirlo, lo he importado de un foro conocido pero por si alguien no esta registrado, lo pongo aqui, aparte es capricho mio esta tema instrumental, acompaña a un capitulo en en que se produce un nacimiento y una muerte en el mismo capitulo por eso se llama LIFE AND DEATH, bueno hay va el original


y
Michael Giacchino - Life and Death (Theme from LOST)
Arranged for Ukulele by iamblinkin
Tuning: gCEA
----------------------------------------------------

Intro chords (played w/o A string) and slides:

Bb - Dm - Bb - Dm - Eb - Dm - Eb - Gm - F
-----------------5/8---------------------------------
-----------------------------------------------------
-------2/5-------------------------------------------
-----------------------------------------------------


Melody (w/ chords):

-------------------0-------------------------0-------
1------1----1---1-----1----1-----1----1---1-----1----
2----2----2---2-2----------2---2----2---2-2----------
3---------------2----------3--------------2----------

-----------------------------------------------------
3---------------1----------1---3---------------1--1--
3----3-5--3-5-3-2--3--2--3---3-3----3-5--3-5-3-2--0--
3---------------3--------------3---------------3--2--

-------------------0-------------------------0-------
1------1----1---1-----1----1-----1----1---1-----1----
2----2----2---2-2----------2---2----2---2-2----------
3---------------2----------3--------------2----------

8----6-8--6-8-6-8-6-5-6-8----------------------------
3--------------(1)-------------3---------------1--1--
3--------------(2)-------------3----3-5--3-5-3-2--0--
3--------------(3)-------------3---------------3--2--

-8---5-8---5-8-5-8-12-8-----8---5-8---5-8-5-8-12-8---
(1)-------------------------1------------------------
(2)-------------------------2------------------------
(3)-------------------------2------------------------

8----6-8--6-8-6-8-6-5-6-8------8----6-8--6-8-6-5---3-
3--------------(1)-------------3---------------1---1-
3--------------(2)-------------3---------------2---0-
3--------------(3)-------------3---------------3---2-

End with:

Bb
Reply Reply With Quote


Comentarios

Este hilo ha sido cerrado.